  0
SECTION
  2
HEADER
  9
$ACADVER
  1
AC1015
  9
$ACADMAINTVER
 70
     6
  9
$DWGCODEPAGE
  3
ANSI_1254
  9
$INSBASE
 10
0.0
 20
0.0
 30
0.0
  9
$EXTMIN
 10
0.0
 20
0.0
 30
0.0
  9
$EXTMAX
 10
279.4
 20
215.9
 30
0.0
  9
$LIMMIN
 10
0.0
 20
0.0
  9
$LIMMAX
 10
279.4
 20
215.9
  9
$ORTHOMODE
 70
     0
  9
$REGENMODE
 70
     1
  9
$FILLMODE
 70
     1
  9
$QTEXTMODE
 70
     0
  9
$MIRRTEXT
 70
     1
  9
$LTSCALE
 40
1.0
  9
$ATTMODE
 70
     1
  9
$TEXTSIZE
 40
3.5
  9
$TRACEWID
 40
1.0
  9
$TEXTSTYLE
  7
Standard
  9
$CLAYER
  8
0
  9
$CELTYPE
  6
ByLayer
  9
$CECOLOR
 62
   256
  9
$CELTSCALE
 40
1.0
  9
$DISPSILH
 70
     0
  9
$DIMSCALE
 40
1.0
  9
$DIMASZ
 40
3.5
  9
$DIMEXO
 40
1.0
  9
$DIMDLI
 40
3.75
  9
$DIMRND
 40
0.0
  9
$DIMDLE
 40
0.0
  9
$DIMEXE
 40
1.0
  9
$DIMTP
 40
0.0
  9
$DIMTM
 40
0.0
  9
$DIMTXT
 40
3.5
  9
$DIMCEN
 40
2.5
  9
$DIMTSZ
 40
0.0
  9
$DIMTOL
 70
     0
  9
$DIMLIM
 70
     0
  9
$DIMTIH
 70
     1
  9
$DIMTOH
 70
     1
  9
$DIMSE1
 70
     0
  9
$DIMSE2
 70
     0
  9
$DIMTAD
 70
     1
  9
$DIMZIN
 70
     0
  9
$DIMBLK
  1

  9
$DIMASO
 70
     1
  9
$DIMSHO
 70
     1
  9
$DIMPOST
  1

  9
$DIMAPOST
  1

  9
$DIMALT
 70
     0
  9
$DIMALTD
 70
     3
  9
$DIMALTF
 40
0.0393700787
  9
$DIMLFAC
 40
1.0
  9
$DIMTOFL
 70
     1
  9
$DIMTVP
 40
0.0
  9
$DIMTIX
 70
     0
  9
$DIMSOXD
 70
     0
  9
$DIMSAH
 70
     0
  9
$DIMBLK1
  1

  9
$DIMBLK2
  1

  9
$DIMSTYLE
  2
ISO-25
  9
$DIMCLRD
 70
     0
  9
$DIMCLRE
 70
     0
  9
$DIMCLRT
 70
     0
  9
$DIMTFAC
 40
1.0
  9
$DIMGAP
 40
1.524
  9
$DIMJUST
 70
     0
  9
$DIMSD1
 70
     0
  9
$DIMSD2
 70
     0
  9
$DIMTOLJ
 70
     0
  9
$DIMTZIN
 70
     0
  9
$DIMALTZ
 70
     0
  9
$DIMALTTZ
 70
     0
  9
$DIMUPT
 70
     0
  9
$DIMDEC
 70
     2
  9
$DIMTDEC
 70
     2
  9
$DIMALTU
 70
     2
  9
$DIMALTTD
 70
     3
  9
$DIMTXSTY
  7
Standard
  9
$DIMAUNIT
 70
     0
  9
$DIMADEC
 70
     2
  9
$DIMALTRND
 40
0.0
  9
$DIMAZIN
 70
     0
  9
$DIMDSEP
 70
    44
  9
$DIMATFIT
 70
     3
  9
$DIMFRAC
 70
     0
  9
$DIMLDRBLK
  1

  9
$DIMLUNIT
 70
     2
  9
$DIMLWD
 70
    -2
  9
$DIMLWE
 70
    -2
  9
$DIMTMOVE
 70
     0
  9
$LUNITS
 70
     2
  9
$LUPREC
 70
     2
  9
$SKETCHINC
 40
1.0
  9
$FILLETRAD
 40
10.0
  9
$AUNITS
 70
     0
  9
$AUPREC
 70
     2
  9
$MENU
  1
.
  9
$ELEVATION
 40
0.0
  9
$PELEVATION
 40
0.0
  9
$THICKNESS
 40
0.0
  9
$LIMCHECK
 70
     0
  9
$CHAMFERA
 40
0.0
  9
$CHAMFERB
 40
0.0
  9
$CHAMFERC
 40
0.0
  9
$CHAMFERD
 40
0.0
  9
$SKPOLY
 70
     0
  9
$TDCREATE
 40
2458985.6913875
  9
$TDUCREATE
 40
2458985.5663875
  9
$TDUPDATE
 40
2458985.691387847
  9
$TDUUPDATE
 40
2458985.566387847
  9
$TDINDWG
 40
0.0000000116
  9
$TDUSRTIMER
 40
0.0000000116
  9
$USRTIMER
 70
     1
  9
$ANGBASE
 50
0.0
  9
$ANGDIR
 70
     0
  9
$PDMODE
 70
     0
  9
$PDSIZE
 40
-1.0
  9
$PLINEWID
 40
0.0
  9
$SPLFRAME
 70
     0
  9
$SPLINETYPE
 70
     6
  9
$SPLINESEGS
 70
     8
  9
$HANDSEED
  5
CB
  9
$SURFTAB1
 70
     6
  9
$SURFTAB2
 70
     6
  9
$SURFTYPE
 70
     6
  9
$SURFU
 70
     6
  9
$SURFV
 70
     6
  9
$UCSBASE
  2

  9
$UCSNAME
  2

  9
$UCSORG
 10
0.0
 20
0.0
 30
0.0
  9
$UCSXDIR
 10
1.0
 20
0.0
 30
0.0
  9
$UCSYDIR
 10
0.0
 20
1.0
 30
0.0
  9
$UCSORTHOREF
  2

  9
$UCSORTHOVIEW
 70
     0
  9
$UCSORGTOP
 10
0.0
 20
0.0
 30
0.0
  9
$UCSORGBOTTOM
 10
0.0
 20
0.0
 30
0.0
  9
$UCSORGLEFT
 10
0.0
 20
0.0
 30
0.0
  9
$UCSORGRIGHT
 10
0.0
 20
0.0
 30
0.0
  9
$UCSORGFRONT
 10
0.0
 20
0.0
 30
0.0
  9
$UCSORGBACK
 10
0.0
 20
0.0
 30
0.0
  9
$PUCSBASE
  2

  9
$PUCSNAME
  2

  9
$PUCSORG
 10
0.0
 20
0.0
 30
0.0
  9
$PUCSXDIR
 10
1.0
 20
0.0
 30
0.0
  9
$PUCSYDIR
 10
0.0
 20
1.0
 30
0.0
  9
$PUCSORTHOREF
  2

  9
$PUCSORTHOVIEW
 70
     0
  9
$PUCSORGTOP
 10
0.0
 20
0.0
 30
0.0
  9
$PUCSORGBOTTOM
 10
0.0
 20
0.0
 30
0.0
  9
$PUCSORGLEFT
 10
0.0
 20
0.0
 30
0.0
  9
$PUCSORGRIGHT
 10
0.0
 20
0.0
 30
0.0
  9
$PUCSORGFRONT
 10
0.0
 20
0.0
 30
0.0
  9
$PUCSORGBACK
 10
0.0
 20
0.0
 30
0.0
  9
$USERI1
 70
     0
  9
$USERI2
 70
     0
  9
$USERI3
 70
     0
  9
$USERI4
 70
     0
  9
$USERI5
 70
     0
  9
$USERR1
 40
0.0
  9
$USERR2
 40
0.0
  9
$USERR3
 40
0.0
  9
$USERR4
 40
0.0
  9
$USERR5
 40
0.0
  9
$WORLDVIEW
 70
     1
  9
$SHADEDGE
 70
     3
  9
$SHADEDIF
 70
    70
  9
$TILEMODE
 70
     1
  9
$MAXACTVP
 70
    64
  9
$PINSBASE
 10
0.0
 20
0.0
 30
0.0
  9
$PLIMCHECK
 70
     0
  9
$PEXTMIN
 10
1.0000000000E+20
 20
1.0000000000E+20
 30
1.0000000000E+20
  9
$PEXTMAX
 10
-1.0000000000E+20
 20
-1.0000000000E+20
 30
-1.0000000000E+20
  9
$PLIMMIN
 10
0.0
 20
0.0
  9
$PLIMMAX
 10
420.0
 20
297.0
  9
$UNITMODE
 70
     0
  9
$VISRETAIN
 70
     1
  9
$PLINEGEN
 70
     0
  9
$PSLTSCALE
 70
     1
  9
$TREEDEPTH
 70
  3020
  9
$CMLSTYLE
  2
Standard
  9
$CMLJUST
 70
     0
  9
$CMLSCALE
 40
20.0
  9
$PROXYGRAPHICS
 70
     1
  9
$MEASUREMENT
 70
     1
  9
$CELWEIGHT
370
    -1
  9
$ENDCAPS
280
     0
  9
$JOINSTYLE
280
     0
  9
$LWDISPLAY
290
     1
  9
$INSUNITS
 70
     4
  9
$HYPERLINKBASE
  1

  9
$STYLESHEET
  1

  9
$XEDIT
290
     1
  9
$CEPSNTYPE
380
     0
  9
$PSTYLEMODE
290
     1
  9
$FINGERPRINTGUID
  2
{5c7578ac-512c-4fa8-8293-ce8a57d20015}
  9
$VERSIONGUID
  2
{FAEB1C32-E019-11D5-929B-00C0DF256EC4}
  9
$EXTNAMES
290
     1
  9
$PSVPSCALE
 40
0.0
  9
$OLESTARTUP
290
     0
  0
ENDSEC
  0
SECTION
  2
CLASSES
  0
CLASS
  1
ACDBDICTIONARYWDFLT
  2
AcDbDictionaryWithDefault
  3
ObjectDBX Classes
 90
        0
280
     0
281
     0
  0
CLASS
  1
VISUALSTYLE
  2
AcDbVisualStyle
  3
ObjectDBX Classes
 90
     4095
280
     0
281
     0
  0
CLASS
  1
MATERIAL
  2
AcDbMaterial
  3
ObjectDBX Classes
 90
     1153
280
     0
281
     0
  0
CLASS
  1
SCALE
  2
AcDbScale
  3
ObjectDBX Classes
 90
     1153
280
     0
281
     0
  0
CLASS
  1
TABLESTYLE
  2
AcDbTableStyle
  3
ObjectDBX Classes
 90
     4095
280
     0
281
     0
  0
CLASS
  1
MLEADERSTYLE
  2
AcDbMLeaderStyle
  3
ACDB_MLEADERSTYLE_CLASS
 90
     4095
280
     0
281
     0
  0
CLASS
  1
SUN
  2
AcDbSun
  3
SCENEOE
 90
     1153
280
     0
281
     0
  0
CLASS
  1
ACDBPLACEHOLDER
  2
AcDbPlaceHolder
  3
ObjectDBX Classes
 90
        0
280
     0
281
     0
  0
CLASS
  1
LAYOUT
  2
AcDbLayout
  3
ObjectDBX Classes
 90
        0
280
     0
281
     0
  0
ENDSEC
  0
SECTION
  2
TABLES
  0
TABLE
  2
VPORT
  5
8
330
0
100
AcDbSymbolTable
 70
     1
  0
VPORT
  5
29
330
8
100
AcDbSymbolTableRecord
100
AcDbViewportTableRecord
  2
*Active
 70
     0
 10
0.0
 20
0.0
 11
1.0
 21
1.0
 12
139.7
 22
107.95
 13
0.0
 23
0.0
 14
10.0
 24
10.0
 15
10.0
 25
10.0
 16
0.0
 26
0.0
 36
1.0
 17
0.0
 27
0.0
 37
0.0
 40
215.9
 41
1.2941176471
 42
50.0
 43
0.0
 44
0.0
 50
0.0
 51
0.0
 71
     0
 72
  2000
 73
     1
 74
     3
 75
     0
 76
     0
 77
     0
 78
     0
281
     0
 65
     1
110
0.0
120
0.0
130
0.0
111
1.0
121
0.0
131
0.0
112
0.0
122
1.0
132
0.0
 79
     0
146
0.0
  0
ENDTAB
  0
TABLE
  2
LTYPE
  5
5
330
0
100
AcDbSymbolTable
 70
     6
  0
LTYPE
  5
14
330
5
100
AcDbSymbolTableRecord
100
AcDbLinetypeTableRecord
  2
ByBlock
 70
     0
  3

 72
    65
 73
     0
 40
0.0
  0
LTYPE
  5
15
330
5
100
AcDbSymbolTableRecord
100
AcDbLinetypeTableRecord
  2
ByLayer
 70
     0
  3

 72
    65
 73
     0
 40
0.0
  0
LTYPE
  5
16
330
5
100
AcDbSymbolTableRecord
100
AcDbLinetypeTableRecord
  2
Continuous
 70
     0
  3
Solid line
 72
    65
 73
     0
 40
0.0
  0
LTYPE
  5
6E
330
5
100
AcDbSymbolTableRecord
100
AcDbLinetypeTableRecord
  2
HIDDEN
 70
     0
  3
Hidden __ __ __ __ __ __ __ __ __ __ __ __ __ __
 72
    65
 73
     2
 40
1.905
 49
1.27
 74
     0
 49
-0.635
 74
     0
  0
LTYPE
  5
6F
330
5
100
AcDbSymbolTableRecord
100
AcDbLinetypeTableRecord
  2
PHANTOM
 70
     0
  3
Phantom ______  __  __  ______  __  __  ______
 72
    65
 73
     6
 40
12.7
 49
6.35
 74
     0
 49
-1.27
 74
     0
 49
1.27
 74
     0
 49
-1.27
 74
     0
 49
1.27
 74
     0
 49
-1.27
 74
     0
  0
LTYPE
  5
70
330
5
100
AcDbSymbolTableRecord
100
AcDbLinetypeTableRecord
  2
CENTER
 70
     0
  3
Center ____ _ ____ _ ____ _ ____ _ ____ _ ____
 72
    65
 73
     4
 40
10.16
 49
6.35
 74
     0
 49
-1.27
 74
     0
 49
1.27
 74
     0
 49
-1.27
 74
     0
  0
LTYPE
  5
71
330
5
100
AcDbSymbolTableRecord
100
AcDbLinetypeTableRecord
  2
CENTERX2
 70
     0
  3
Center (2x) ________  __  ________  __  _____
 72
    65
 73
     4
 40
20.32
 49
12.7
 74
     0
 49
-2.54
 74
     0
 49
2.54
 74
     0
 49
-2.54
 74
     0
  0
LTYPE
  5
72
330
5
100
AcDbSymbolTableRecord
100
AcDbLinetypeTableRecord
  2
DOT2
 70
     0
  3
Dot (.5x) ........................................
 72
    65
 73
     2
 40
0.635
 49
0.0
 74
     0
 49
-0.635
 74
     0
  0
ENDTAB
  0
TABLE
  2
LAYER
  5
2
330
0
100
AcDbSymbolTable
 70
    17
  0
LAYER
  5
10
330
2
100
AcDbSymbolTableRecord
100
AcDbLayerTableRecord
  2
0
 70
     0
 62
     7
  6
Continuous
370
    -3
390
F
  0
LAYER
  5
73
330
2
100
AcDbSymbolTableRecord
100
AcDbLayerTableRecord
  2
FORMAT
 70
     0
 62
     7
  6
Continuous
370
    -3
390
F
  0
LAYER
  5
74
330
2
100
AcDbSymbolTableRecord
100
AcDbLayerTableRecord
  2
YARDIMCI_GEOMETRI
 70
     0
 62
    -6
  6
Continuous
290
     0
370
    -3
390
F
  0
LAYER
  5
75
330
2
100
AcDbSymbolTableRecord
100
AcDbLayerTableRecord
  2
SAYFA_CERCEVESI
 70
     0
 62
     7
  6
Continuous
370
    25
390
F
  0
LAYER
  5
76
330
2
100
AcDbSymbolTableRecord
100
AcDbLayerTableRecord
  2
ANTET
 70
     0
 62
     7
  6
Continuous
370
    -3
390
F
  0
LAYER
  5
77
330
2
100
AcDbSymbolTableRecord
100
AcDbLayerTableRecord
  2
OLCU
 70
     0
 62
   150
  6
Continuous
370
    -3
390
F
  0
LAYER
  5
78
330
2
100
AcDbSymbolTableRecord
100
AcDbLayerTableRecord
  2
METIN
 70
     0
 62
    96
  6
Continuous
370
    -3
390
F
  0
LAYER
  5
79
330
2
100
AcDbSymbolTableRecord
100
AcDbLayerTableRecord
  2
BALON
 70
     0
 62
     5
  6
Continuous
370
    -3
390
F
  0
LAYER
  5
7A
330
2
100
AcDbSymbolTableRecord
100
AcDbLayerTableRecord
  2
VURGU
 70
     0
 62
     7
  6
Continuous
370
    -3
390
F
  0
LAYER
  5
7B
330
2
100
AcDbSymbolTableRecord
100
AcDbLayerTableRecord
  2
SILIK
 70
     0
 62
     7
  6
Continuous
370
    -3
390
F
  0
LAYER
  5
7C
330
2
100
AcDbSymbolTableRecord
100
AcDbLayerTableRecord
  2
MODEL
 70
     0
 62
     7
  6
Continuous
370
    -3
390
F
  0
LAYER
  5
7D
330
2
100
AcDbSymbolTableRecord
100
AcDbLayerTableRecord
  2
DETAYLANDıRMA
 70
     0
 62
   190
  6
Continuous
370
    -3
390
F
  0
LAYER
  5
7E
330
2
100
AcDbSymbolTableRecord
100
AcDbLayerTableRecord
  2
TOLERANS
 70
     0
 62
   230
  6
Continuous
370
    -3
390
F
  0
LAYER
  5
7F
330
2
100
AcDbSymbolTableRecord
100
AcDbLayerTableRecord
  2
MERKEZ_CIZGILERI
 70
     0
 62
    30
  6
Continuous
370
    -3
390
F
  0
LAYER
  5
80
330
2
100
AcDbSymbolTableRecord
100
AcDbLayerTableRecord
  2
KESIT-DETAY_CIZGILERI
 70
     0
 62
     7
  6
Continuous
370
    -3
390
F
  0
LAYER
  5
81
330
2
100
AcDbSymbolTableRecord
100
AcDbLayerTableRecord
  2
\U+041E\U+0421\U+0415\U+0412\U+042B\U+0415
 70
     0
 62
     7
  6
Continuous
370
    -3
390
F
  0
LAYER
  5
82
330
2
100
AcDbSymbolTableRecord
100
AcDbLayerTableRecord
  2
\U+0412\U+041E\U+0414\U+042F\U+041D\U+042B\U+0415_\U+0417\U+041D\U+0410\U+041A\U+0418
 70
     0
 62
    11
  6
Continuous
370
    -3
390
F
  0
ENDTAB
  0
TABLE
  2
STYLE
  5
3
330
0
100
AcDbSymbolTable
 70
     1
  0
STYLE
  5
11
330
3
100
AcDbSymbolTableRecord
100
AcDbTextStyleTableRecord
  2
Standard
 70
     0
 40
0.0
 41
1.0
 50
0.0
 71
     0
 42
3.5
  3
txt
  4

  0
ENDTAB
  0
TABLE
  2
VIEW
  5
6
330
0
100
AcDbSymbolTable
 70
     0
  0
ENDTAB
  0
TABLE
  2
UCS
  5
7
330
0
100
AcDbSymbolTable
 70
     0
  0
ENDTAB
  0
TABLE
  2
APPID
  5
9
330
0
100
AcDbSymbolTable
 70
     1
  0
APPID
  5
12
330
9
100
AcDbSymbolTableRecord
100
AcDbRegAppTableRecord
  2
ACAD
 70
     0
  0
ENDTAB
  0
TABLE
  2
DIMSTYLE
  5
A
330
0
100
AcDbSymbolTable
 70
     1
100
AcDbDimStyleTable
  0
DIMSTYLE
105
27
330
A
100
AcDbSymbolTableRecord
100
AcDbDimStyleTableRecord
  2
ISO-25
 70
     0
 41
2.5
 42
0.625
 43
3.75
 44
1.25
 73
     0
 74
     0
 77
     1
 78
     8
140
2.5
141
2.5
143
0.0393700787
147
0.625
171
     3
172
     1
178
     0
271
     2
272
     2
274
     3
278
    44
283
     0
284
     8
340
11
  0
ENDTAB
  0
TABLE
  2
BLOCK_RECORD
  5
1
330
0
100
AcDbSymbolTable
 70
     3
  0
BLOCK_RECORD
  5
1F
330
1
100
AcDbSymbolTableRecord
100
AcDbBlockTableRecord
  2
*Model_Space
340
22
  0
BLOCK_RECORD
  5
1B
330
1
100
AcDbSymbolTableRecord
100
AcDbBlockTableRecord
  2
*Paper_Space
340
1E
  0
BLOCK_RECORD
  5
23
330
1
100
AcDbSymbolTableRecord
100
AcDbBlockTableRecord
  2
*Paper_Space0
340
26
  0
BLOCK_RECORD
  5
88
330
1
100
AcDbSymbolTableRecord
100
AcDbBlockTableRecord
  2
SW_CENTERMARKSYMBOL_0
340
0
102
{BLKREFS
331
93
102
}
  0
BLOCK_RECORD
  5
9C
330
1
100
AcDbSymbolTableRecord
100
AcDbBlockTableRecord
  2
SW_CENTERMARKSYMBOL_1
340
0
102
{BLKREFS
331
A7
102
}
  0
ENDTAB
  0
ENDSEC
  0
SECTION
  2
BLOCKS
  0
BLOCK
  5
20
330
1F
100
AcDbEntity
  8
0
100
AcDbBlockBegin
  2
*Model_Space
 70
     0
 10
0.0
 20
0.0
 30
0.0
  3
*Model_Space
  1

  0
ENDBLK
  5
21
330
1F
100
AcDbEntity
  8
0
100
AcDbBlockEnd
  0
BLOCK
  5
1C
330
1B
100
AcDbEntity
 67
     1
  8
0
100
AcDbBlockBegin
  2
*Paper_Space
 70
     0
 10
0.0
 20
0.0
 30
0.0
  3
*Paper_Space
  1

  0
ENDBLK
  5
1D
330
1B
100
AcDbEntity
 67
     1
  8
0
100
AcDbBlockEnd
  0
BLOCK
  5
24
330
23
100
AcDbEntity
  8
0
100
AcDbBlockBegin
  2
*Paper_Space0
 70
     0
 10
0.0
 20
0.0
 30
0.0
  3
*Paper_Space0
  1

  0
ENDBLK
  5
25
330
23
100
AcDbEntity
  8
0
100
AcDbBlockEnd
  0
BLOCK
  5
89
330
88
100
AcDbEntity
  8
0
100
AcDbBlockBegin
  2
SW_CENTERMARKSYMBOL_0
 70
     0
 10
0.0
 20
0.0
 30
0.0
  3
SW_CENTERMARKSYMBOL_0
  1

  0
LINE
  5
8B
330
88
100
AcDbEntity
  8
FORMAT
 62
     0
100
AcDbLine
 10
0.0
 20
0.0
 30
0.0
 11
2.5
 21
0.0
 31
0.0
  0
LINE
  5
8C
330
88
100
AcDbEntity
  8
FORMAT
 62
     0
100
AcDbLine
 10
0.0
 20
0.0
 30
0.0
 11
0.0
 21
2.5
 31
0.0
  0
LINE
  5
8D
330
88
100
AcDbEntity
  8
FORMAT
 62
     0
100
AcDbLine
 10
0.0
 20
0.0
 30
0.0
 11
-2.5
 21
0.0
 31
0.0
  0
LINE
  5
8E
330
88
100
AcDbEntity
  8
FORMAT
 62
     0
100
AcDbLine
 10
0.0
 20
0.0
 30
0.0
 11
0.0
 21
-2.5
 31
0.0
  0
LINE
  5
8F
330
88
100
AcDbEntity
  8
FORMAT
 62
     0
100
AcDbLine
 10
5.0
 20
0.0
 30
0.0
 11
142.5
 21
0.0
 31
0.0
  0
LINE
  5
90
330
88
100
AcDbEntity
  8
FORMAT
 62
     0
100
AcDbLine
 10
0.0
 20
5.0
 30
0.0
 11
0.0
 21
142.5
 31
0.0
  0
LINE
  5
91
330
88
100
AcDbEntity
  8
FORMAT
 62
     0
100
AcDbLine
 10
-5.0
 20
0.0
 30
0.0
 11
-142.5
 21
0.0
 31
0.0
  0
LINE
  5
92
330
88
100
AcDbEntity
  8
FORMAT
 62
     0
100
AcDbLine
 10
0.0
 20
-5.0
 30
0.0
 11
0.0
 21
-142.5
 31
0.0
  0
ENDBLK
  5
8A
330
88
100
AcDbEntity
  8
0
100
AcDbBlockEnd
  0
BLOCK
  5
9D
330
9C
100
AcDbEntity
  8
0
100
AcDbBlockBegin
  2
SW_CENTERMARKSYMBOL_1
 70
     0
 10
0.0
 20
0.0
 30
0.0
  3
SW_CENTERMARKSYMBOL_1
  1

  0
LINE
  5
9F
330
9C
100
AcDbEntity
  8
FORMAT
 62
     0
100
AcDbLine
 10
0.0
 20
0.0
 30
0.0
 11
0.0
 21
2.5
 31
0.0
  0
LINE
  5
A0
330
9C
100
AcDbEntity
  8
FORMAT
 62
     0
100
AcDbLine
 10
0.0
 20
0.0
 30
0.0
 11
-2.5
 21
0.0
 31
0.0
  0
LINE
  5
A1
330
9C
100
AcDbEntity
  8
FORMAT
 62
     0
100
AcDbLine
 10
0.0
 20
0.0
 30
0.0
 11
0.0
 21
-2.5
 31
0.0
  0
LINE
  5
A2
330
9C
100
AcDbEntity
  8
FORMAT
 62
     0
100
AcDbLine
 10
0.0
 20
0.0
 30
0.0
 11
2.5
 21
0.0
 31
0.0
  0
LINE
  5
A3
330
9C
100
AcDbEntity
  8
FORMAT
 62
     0
100
AcDbLine
 10
0.0
 20
5.0
 30
0.0
 11
0.0
 21
57.5
 31
0.0
  0
LINE
  5
A4
330
9C
100
AcDbEntity
  8
FORMAT
 62
     0
100
AcDbLine
 10
-5.0
 20
0.0
 30
0.0
 11
-57.5
 21
0.0
 31
0.0
  0
LINE
  5
A5
330
9C
100
AcDbEntity
  8
FORMAT
 62
     0
100
AcDbLine
 10
0.0
 20
-5.0
 30
0.0
 11
0.0
 21
-57.5
 31
0.0
  0
LINE
  5
A6
330
9C
100
AcDbEntity
  8
FORMAT
 62
     0
100
AcDbLine
 10
5.0
 20
0.0
 30
0.0
 11
57.5
 21
0.0
 31
0.0
  0
ENDBLK
  5
9E
330
9C
100
AcDbEntity
  8
0
100
AcDbBlockEnd
  0
ENDSEC
  0
SECTION
  2
ENTITIES
  0
LINE
  5
83
330
1F
100
AcDbEntity
  8
0
  6
Continuous
 62
     7
370
    25
100
AcDbLine
 10
85.2388278633
 20
24.4077992129
 30
0.0
 11
85.2388278633
 21
-136.8167299342
 31
0.0
  0
LINE
  5
84
330
1F
100
AcDbEntity
  8
0
  6
Continuous
 62
     7
370
    25
100
AcDbLine
 10
195.2388272672
 20
-136.8167299342
 30
0.0
 11
195.2388272672
 21
24.4333994079
 31
0.0
  0
CIRCLE
  5
85
330
1F
100
AcDbEntity
  8
0
  6
Continuous
 62
     7
370
    25
100
AcDbCircle
 10
140.2388275653
 20
153.1832617212
 30
0.0
 40
123.4
  0
CIRCLE
  5
86
330
1F
100
AcDbEntity
  8
0
  6
Continuous
 62
     7
370
    25
100
AcDbCircle
 10
140.2388275653
 20
153.1832617212
 30
0.0
 40
140.0
  0
LINE
  5
87
330
1F
100
AcDbEntity
  8
0
  6
Continuous
 62
     7
370
    25
100
AcDbLine
 10
195.2388272672
 20
-136.8167299342
 30
0.0
 11
85.2388278633
 21
-136.8167299342
 31
0.0
  0
INSERT
  5
93
330
1F
100
AcDbEntity
  8
FORMAT
 62
     7
100
AcDbBlockReference
  2
SW_CENTERMARKSYMBOL_0
 10
140.2388275653
 20
153.1832617212
 30
0.0
  0
LINE
  5
94
330
1F
100
AcDbEntity
  8
0
  6
Continuous
 62
     7
370
    25
100
AcDbLine
 10
280.2388281613
 20
422.1839604499
 30
0.0
 11
280.2388281613
 21
1112.1839580658
 31
0.0
  0
LINE
  5
95
330
1F
100
AcDbEntity
  8
0
  6
Continuous
 62
     7
370
    25
100
AcDbLine
 10
0.2388269692
 20
1112.1839580658
 30
0.0
 11
0.2388269692
 21
422.1839604499
 31
0.0
  0
CIRCLE
  5
96
330
1F
100
AcDbEntity
  8
0
  6
Continuous
 62
     7
370
    25
100
AcDbCircle
 10
140.2388275653
 20
767.1839592578
 30
0.0
 40
48.39999999999998
  0
CIRCLE
  5
97
330
1F
100
AcDbEntity
  8
0
  6
Continuous
 62
     7
370
    25
100
AcDbCircle
 10
140.2388275653
 20
767.1839592578
 30
0.0
 40
55.0
  0
LINE
  5
98
330
1F
100
AcDbEntity
  8
0
  6
Continuous
 62
     7
370
    25
100
AcDbLine
 10
140.2388275653
 20
1112.1839580658
 30
0.0
 11
280.2388281613
 21
1112.1839580658
 31
0.0
  0
LINE
  5
99
330
1F
100
AcDbEntity
  8
0
  6
Continuous
 62
     7
370
    25
100
AcDbLine
 10
0.2388269692
 20
1112.1839580658
 30
0.0
 11
140.2388275653
 21
1112.1839580658
 31
0.0
  0
LINE
  5
9A
330
1F
100
AcDbEntity
  8
0
  6
Continuous
 62
     7
370
    25
100
AcDbLine
 10
140.2388275653
 20
422.1839604499
 30
0.0
 11
280.2388281613
 21
422.1839604499
 31
0.0
  0
LINE
  5
9B
330
1F
100
AcDbEntity
  8
0
  6
Continuous
 62
     7
370
    25
100
AcDbLine
 10
0.2388269692
 20
422.1839604499
 30
0.0
 11
140.2388275653
 21
422.1839604499
 31
0.0
  0
INSERT
  5
A7
330
1F
100
AcDbEntity
  8
FORMAT
100
AcDbBlockReference
  2
SW_CENTERMARKSYMBOL_1
 10
140.2388275653
 20
767.1839592579
 30
0.0
  0
LINE
  5
A8
330
1F
100
AcDbEntity
  8
0
  6
Continuous
 62
     7
370
    25
100
AcDbLine
 10
-233.4456613158
 20
293.1832623172
 30
0.0
 11
-923.4456589316
 21
293.1832623172
 31
0.0
  0
LINE
  5
A9
330
1F
100
AcDbEntity
  8
0
  6
Continuous
 62
     7
370
    25
100
AcDbLine
 10
-523.4790464734
 20
13.1832611251
 30
0.0
 11
-233.4456613158
 21
13.1832611251
 31
0.0
  0
LINE
  5
AA
330
1F
100
AcDbEntity
  8
0
  6
Continuous
 62
     7
370
    25
100
AcDbLine
 10
-923.4456589316
 20
13.1832611251
 30
0.0
 11
-633.4456598257
 21
13.1832611251
 31
0.0
  0
LINE
  5
AB
330
1F
100
AcDbEntity
  8
0
  6
Continuous
 62
     7
370
    25
100
AcDbLine
 10
-633.4456598257
 20
13.1832611251
 30
0.0
 11
-633.4456598257
 21
-136.8167299342
 31
0.0
  0
LINE
  5
AC
330
1F
100
AcDbEntity
  8
0
  6
Continuous
 62
     7
370
    25
100
AcDbLine
 10
-523.4456604217
 20
-136.8167299342
 30
0.0
 11
-523.4456604217
 21
13.1963890481
 31
0.0
  0
LWPOLYLINE
  5
AD
330
1F
100
AcDbEntity
  8
0
  6
Continuous
 62
     7
370
    25
100
AcDbPolyline
 90
       40
 70
   128
 43
0.0
 10
-523.4790464734
 20
13.1963890481
 10
-523.561889479
 20
13.2289927888
 10
-524.0500813221
 20
13.4196084428
 10
-524.8425548767
 20
13.7261998344
 10
-525.9528664743
 20
14.1491245914
 10
-527.4156911169
 20
14.6948349166
 10
-529.1916413103
 20
15.3392952371
 10
-531.2763249372
 20
16.0703909087
 10
-533.647919247
 20
16.8680500674
 10
-536.3631306087
 20
17.7360874105
 10
-539.3472893034
 20
18.6333310294
 10
-542.7050089334
 20
19.5703607488
 10
-546.3135486339
 20
20.4901051212
 10
-550.2660108601
 20
21.3912826467
 10
-554.4380975758
 20
22.22005543
 10
-558.7040280794
 20
22.9342978883
 10
-563.1264487152
 20
23.5311191964
 10
-567.8292067592
 20
24.0019660878
 10
-572.6268777494
 20
24.3079018283
 10
-576.9942403409
 20
24.4308513093
 10
-581.3724058085
 20
24.4060706783
 10
-585.8648220879
 20
24.2254239011
 10
-590.2992246543
 20
23.8947969365
 10
-598.3323978131
 20
22.912452786
 10
-602.2670065855
 20
22.2539257693
 10
-606.045669118
 20
21.5141278196
 10
-609.7515096758
 20
20.6876945186
 10
-613.251699308
 20
19.8173772979
 10
-616.6087819134
 20
18.9021032739
 10
-619.7119971608
 20
17.9874401975
 10
-622.6320063566
 20
17.0677703309
 10
-625.2424588297
 20
16.198078959
 10
-627.5869404768
 20
15.3796028781
 10
-629.5625178014
 20
14.6627527166
 10
-630.9909915422
 20
14.1293358493
 10
-632.1019289886
 20
13.7056809354
 10
-632.9018717502
 20
13.3960944104
 10
-633.3475356792
 20
13.2217806268
 10
-633.4456598257
 20
13.1832611251
 10
-633.4456598257
 20
13.1832611251
  0
LINE
  5
AE
330
1F
100
AcDbEntity
  8
0
  6
Continuous
 62
     7
370
    25
100
AcDbLine
 10
-923.4456589316
 20
13.1832611251
 30
0.0
 11
-923.4456589316
 21
293.1832623172
 31
0.0
  0
LINE
  5
AF
330
1F
100
AcDbEntity
  8
0
  6
Continuous
 62
     7
370
    25
100
AcDbLine
 10
-233.4456613158
 20
13.1832611251
 30
0.0
 11
-233.4456613158
 21
293.1832623172
 31
0.0
  0
LINE
  5
B0
330
1F
100
AcDbEntity
  8
0
  6
Continuous
 62
     7
370
    25
100
AcDbLine
 10
-523.4456604217
 20
-136.8167299342
 30
0.0
 11
-633.4456598257
 21
-136.8167299342
 31
0.0
  0
LINE
  5
B1
330
1F
100
AcDbEntity
  8
0
  6
Continuous
 62
     7
370
    25
100
AcDbLine
 10
924.981042176
 20
13.1832611251
 30
0.0
 11
1214.9810412819
 21
13.1832611251
 31
0.0
  0
LINE
  5
B2
330
1F
100
AcDbEntity
  8
0
  6
Continuous
 62
     7
370
    25
100
AcDbLine
 10
524.9810436661
 20
13.1832611251
 30
0.0
 11
815.0141606028
 21
13.1832611251
 31
0.0
  0
LINE
  5
B3
330
1F
100
AcDbEntity
  8
0
  6
Continuous
 62
     7
370
    25
100
AcDbLine
 10
1214.9810412819
 20
293.1832623172
 30
0.0
 11
524.9810436661
 21
293.1832623172
 31
0.0
  0
LINE
  5
B4
330
1F
100
AcDbEntity
  8
0
  6
Continuous
 62
     7
370
    25
100
AcDbLine
 10
814.9810427721
 20
13.1962549377
 30
0.0
 11
814.9810427721
 21
-136.8167299342
 31
0.0
  0
LINE
  5
B5
330
1F
100
AcDbEntity
  8
0
  6
Continuous
 62
     7
370
    25
100
AcDbLine
 10
924.981042176
 20
-136.8167299342
 30
0.0
 11
924.981042176
 21
13.1832611251
 31
0.0
  0
SPLINE
  5
B6
330
1F
100
AcDbEntity
  8
0
  6
Continuous
 62
     7
370
    25
100
AcDbSpline
210
0.0
220
0.0
230
1.0
 70
     8
 71
     3
 72
    45
 73
    41
 74
     0
 42
0.000000001
 43
0.00000001
 40
0.0
 40
0.0
 40
0.0
 40
0.0
 40
0.0250236374628967
 40
0.0502309011779595
 40
0.076010704969036
 40
0.1019843638565962
 40
0.1270061457570173
 40
0.1521941991801002
 40
0.177889299377413
 40
0.2037527847108898
 40
0.2298239363203543
 40
0.2560629208951645
 40
0.2828255820768216
 40
0.3097690905345476
 40
0.3368770232575026
 40
0.3641821477584744
 40
0.3921327820100213
 40
0.4203187145922095
 40
0.4461910459436074
 40
0.4722649117344608
 40
0.4989901893563191
 40
0.5259457042534872
 40
0.5501589849515692
 40
0.5745392950401731
 40
0.59943193203487
 40
0.6244948953531243
 40
0.674100744075408
 40
0.6994699540336201
 40
0.7249957012384929
 40
0.7515488462456321
 40
0.7782778237837432
 40
0.8055646344844757
 40
0.8330479353674751
 40
0.8600162199579999
 40
0.8871869656710983
 40
0.9150200334568475
 40
0.943092733127232
 40
0.9685113797262059
 40
0.9941212835332816
 40
1.0
 40
1.0
 40
1.0
 40
1.0
 10
924.9810421760099
 20
13.18326112510472
 30
0.0
 10
924.9476038617347
 20
13.19641377098139
 30
0.0
 10
924.880481859092
 20
13.22281557832213
 30
0.0
 10
924.3336161914826
 20
13.436854181425
 30
0.0
 10
923.4501580630422
 20
13.77870605118441
 30
0.0
 10
922.2109878715162
 20
14.25017326302523
 30
0.0
 10
920.6518928707945
 20
14.82968726278476
 30
0.0
 10
918.7858246865637
 20
15.50351251119701
 30
0.0
 10
916.5939085120993
 20
16.26677387030943
 30
0.0
 10
914.0799373012861
 20
17.10388905060618
 30
0.0
 10
911.2641163263851
 20
17.99212512999436
 30
0.0
 10
908.1438312650663
 20
18.91438828309912
 30
0.0
 10
904.7286537312234
 20
19.84741860380542
 30
0.0
 10
901.0292874241451
 20
20.76581331401441
 30
0.0
 10
897.0759390315548
 20
21.63918739323699
 30
0.0
 10
892.8637517161244
 20
22.44480368585396
 30
0.0
 10
888.4076974088267
 20
23.15371293563222
 30
0.0
 10
883.8711745622104
 20
23.71859927751253
 30
0.0
 10
879.3253361188919
 20
24.12625434217226
 30
0.0
 10
874.7877042015274
 20
24.37691286113374
 30
0.0
 10
870.1471715844008
 20
24.46775036681441
 30
0.0
 10
865.6132376968235
 20
24.39092359846
 30
0.0
 10
861.2509617441603
 20
24.16617633566416
 30
0.0
 10
857.0685805832071
 20
23.81557176173522
 30
0.0
 10
852.9278537646749
 20
23.33618866630611
 30
0.0
 10
847.541565336907
 20
22.54472348455515
 30
0.0
 10
842.4065782311175
 20
21.55662241793525
 30
0.0
 10
837.627666568387
 20
20.45104256281381
 30
0.0
 10
834.1555012663838
 20
19.56099147035557
 30
0.0
 10
830.8618011581215
 20
18.63892526900472
 30
0.0
 10
827.7636574046202
 20
17.70392218220819
 30
0.0
 10
824.9251235938763
 20
16.7909158636657
 30
0.0
 10
822.3983351652419
 20
15.93352533523192
 30
0.0
 10
820.2126254316704
 20
15.15884502616378
 30
0.0
 10
818.3720120274978
 20
14.48321497152739
 30
0.0
 10
816.8924462871515
 20
13.92477058519094
 30
0.0
 10
815.8320031717612
 20
13.51602123627492
 30
0.0
 10
815.213677842704
 20
13.27470083664105
 30
0.0
 10
814.9494345263358
 20
13.17083635166134
 30
0.0
 10
815.0039777456733
 20
13.19226858337634
 30
0.0
 10
815.0141606028096
 20
13.19626983882695
 30
0.0
  0
LINE
  5
B7
330
1F
100
AcDbEntity
  8
0
  6
Continuous
 62
     7
370
    25
100
AcDbLine
 10
1214.9810412819
 20
293.1832623172
 30
0.0
 11
1214.9810412819
 21
13.1832611251
 31
0.0
  0
LINE
  5
B8
330
1F
100
AcDbEntity
  8
0
  6
Continuous
 62
     7
370
    25
100
AcDbLine
 10
524.9810436661
 20
293.1832623172
 30
0.0
 11
524.9810436661
 21
13.1832611251
 31
0.0
  0
LINE
  5
B9
330
1F
100
AcDbEntity
  8
0
  6
Continuous
 62
     7
370
    25
100
AcDbLine
 10
924.981042176
 20
-136.8167299342
 30
0.0
 11
814.9810427721
 21
-136.8167299342
 31
0.0
  0
LINE
  5
BA
330
1F
100
AcDbEntity
  8
0
  6
Continuous
 62
     7
370
    25
100
AcDbLine
 10
0.2388269692
 20
-217.3302069896
 30
0.0
 11
0.2388269692
 21
-907.3302046054
 31
0.0
  0
LINE
  5
BB
330
1F
100
AcDbEntity
  8
0
  6
Continuous
 62
     7
370
    25
100
AcDbLine
 10
280.2388281613
 20
-907.3302046054
 30
0.0
 11
280.2388281613
 21
-217.3302069896
 31
0.0
  0
LINE
  5
BC
330
1F
100
AcDbEntity
  8
0
  6
Continuous
 62
     7
370
    25
100
AcDbLine
 10
280.2388281613
 20
-907.3302046054
 30
0.0
 11
0.2388269692
 21
-907.3302046054
 31
0.0
  0
LINE
  5
BD
330
1F
100
AcDbEntity
  8
0
  6
Continuous
 62
     7
370
    25
100
AcDbLine
 10
280.2388281613
 20
-217.3302069896
 30
0.0
 11
0.2388269692
 21
-217.3302069896
 31
0.0
  0
LINE
  5
BE
330
1F
100
AcDbEntity
  8
0
  6
Continuous
 62
     7
370
    25
100
AcDbLine
 10
1123.833544887
 20
-502.07201525
 30
0.0
 11
635.9298675541
 21
-220.4112176444
 31
0.0
  0
LINE
  5
BF
330
1F
100
AcDbEntity
  8
0
  6
Continuous
 62
     7
370
    25
100
AcDbLine
 10
495.9412491778
 20
-462.9048980395
 30
0.0
 11
754.8873995015
 21
-612.3913287133
 31
0.0
  0
LINE
  5
C0
330
1F
100
AcDbEntity
  8
0
  6
Continuous
 62
     7
370
    25
100
AcDbLine
 10
864.8873958804
 20
-675.8929749523
 30
0.0
 11
983.8449265106
 21
-744.5656956451
 31
0.0
  0
LINE
  5
C1
330
1F
100
AcDbEntity
  8
0
  6
Continuous
 62
     7
370
    25
100
AcDbLine
 10
754.8873981844
 20
-592.3039947535
 30
0.0
 11
754.8873981844
 21
-719.2852852779
 31
0.0
  0
LINE
  5
C2
330
1F
100
AcDbEntity
  8
0
  6
Continuous
 62
     7
370
    25
100
AcDbLine
 10
864.8873958804
 20
-719.2852852779
 30
0.0
 11
864.8873958804
 21
-592.3048951415
 31
0.0
  0
SPLINE
  5
C3
330
1F
100
AcDbEntity
  8
0
  6
Continuous
 62
     7
370
    25
100
AcDbSpline
210
0.0
220
0.0
230
1.0
 70
     8
 71
     3
 72
    17
 73
    13
 74
     0
 42
0.000000001
 43
0.00000001
 40
0.0
 40
0.0
 40
0.0
 40
0.0
 40
0.1001250824266429
 40
0.2021286914653058
 40
0.3041347428926355
 40
0.4080610701859589
 40
0.5081787280986361
 40
0.6099739524710976
 40
0.7117728994363505
 40
0.8152583980851494
 40
0.9195748152217718
 40
1.0
 40
1.0
 40
1.0
 40
1.0
 10
770.9965242778471
 20
-574.3529478420013
 30
0.0
 10
769.9904679278925
 20
-574.9502871089106
 30
0.0
 10
767.9594798015588
 20
-576.1561728016358
 30
0.0
 10
765.2435680702168
 20
-577.9970554523783
 30
0.0
 10
762.7720805124083
 20
-579.8667132076095
 30
0.0
 10
760.6362421647202
 20
-581.7241747817116
 30
0.0
 10
758.8239358512947
 20
-583.5725476508195
 30
0.0
 10
757.3529622854631
 20
-585.3964412657415
 30
0.0
 10
756.2006423513018
 20
-587.2272734881315
 30
0.0
 10
755.4002414173954
 20
-589.0590471645731
 30
0.0
 10
754.944504011204
 20
-590.7538879475061
 30
0.0
 10
754.9286828473885
 20
-591.8341413129639
 30
0.0
 10
754.9217952811332
 20
-592.3044175021043
 30
0.0
  0
SPLINE
  5
C4
330
1F
100
AcDbEntity
  8
0
  6
Continuous
 62
     7
370
    25
100
AcDbSpline
210
0.0
220
0.0
230
1.0
 70
     8
 71
     3
 72
    35
 73
    31
 74
     0
 42
0.000000001
 43
0.00000001
 40
0.0
 40
0.0
 40
0.0
 40
0.0
 40
0.0333339026753291
 40
0.0691995333529872
 40
0.1058289018380318
 40
0.1427295151624275
 40
0.1785295679131568
 40
0.2146038470953334
 40
0.2515804695765558
 40
0.288885590506156
 40
0.3222083101788825
 40
0.3561760139733751
 40
0.3901441231246232
 40
0.4247780827459397
 40
0.473575196720183
 40
0.522379023955112
 40
0.5556262911150818
 40
0.5896405198801429
 40
0.6241978564306088
 40
0.6587556323914883
 40
0.6938672813320629
 40
0.729903250067333
 40
0.7661920113360492
 40
0.8032983896993309
 40
0.8406986665547477
 40
0.8736645283214025
 40
0.907207647061585
 40
0.9407497672541196
 40
0.9749016521396136
 40
1.0
 40
1.0
 40
1.0
 40
1.0
 10
864.8759688160515
 20
-592.3051354087343
 30
0.0
 10
864.8485939636228
 20
-591.2437724550691
 30
0.0
 10
864.7917651238641
 20
-589.0404354552842
 30
0.0
 10
864.2262503430392
 20
-585.6978295880638
 30
0.0
 10
863.2812876985071
 20
-582.3106064501694
 30
0.0
 10
861.9327585084459
 20
-579.0336261757657
 30
0.0
 10
860.2100203452496
 20
-575.9193801335681
 30
0.0
 10
858.1140008033898
 20
-572.9847250309807
 30
0.0
 10
855.6184940682969
 20
-570.234172486564
 30
0.0
 10
852.8344985799688
 20
-567.810038178141
 30
0.0
 10
849.8260258942153
 20
-565.719910607671
 30
0.0
 10
846.6543306058726
 20
-563.9610763219957
 30
0.0
 10
843.203375317221
 20
-562.4605161222503
 30
0.0
 10
839.0083735941353
 20
-561.0784576623286
 30
0.0
 10
833.9900281086154
 20
-559.9843011976991
 30
0.0
 10
828.7656460152285
 20
-559.4143274156968
 30
0.0
 10
823.9917378961442
 20
-559.2749027390994
 30
0.0
 10
819.7264641139199
 20
-559.3986525589172
 30
0.0
 10
815.3514460743958
 20
-559.7630190583878
 30
0.0
 10
810.8988075702325
 20
-560.3556954450275
 30
0.0
 10
806.3758793046378
 20
-561.168655206031
 30
0.0
 10
801.7977990421385
 20
-562.1946202687404
 30
0.0
 10
797.1830730383053
 20
-563.4255289581771
 30
0.0
 10
792.5914573641293
 20
-564.8412133031803
 30
0.0
 10
788.2495333591776
 20
-566.3595430842612
 30
0.0
 10
784.18643499901
 20
-567.9399046273286
 30
0.0
 10
780.4215076096058
 20
-569.5480225546526
 30
0.0
 10
776.7941654907969
 20
-571.2476542078325
 30
0.0
 10
773.6454307425548
 20
-572.8559328962623
 30
0.0
 10
771.7847198280627
 20
-573.907503454078
 30
0.0
 10
770.9965242778471
 20
-574.3529478420013
 30
0.0
  0
LWPOLYLINE
  5
C5
330
1F
100
AcDbEntity
  8
0
  6
Continuous
 62
     7
370
    25
100
AcDbPolyline
 90
      126
 70
   128
 43
0.0
 10
565.935558366
 20
-455.9737719927
 10
570.9094920219
 20
-452.9579906023
 10
575.8708613072
 20
-449.6610706055
 10
580.807133132
 20
-446.0913057655
 10
585.7058376268
 20
-442.2577442304
 10
590.5546020574
 20
-438.1700594481
 10
595.3411748618
 20
-433.8385727924
 10
600.0534664798
 20
-429.2742421596
 10
604.6795756952
 20
-424.4885737573
 10
609.2078120258
 20
-419.4936700161
 10
613.6267405048
 20
-414.3021489841
 10
617.9251922173
 20
-408.9271199937
 10
622.0923196182
 20
-403.3821638941
 10
626.1175859953
 20
-397.681290465
 10
629.9908286899
 20
-391.8388958362
 10
633.7022643647
 20
-385.8697411954
 10
637.2425153459
 20
-379.7889010791
 10
640.602635965
 20
-373.6117420819
 10
643.7741441686
 20
-367.3538620227
 10
646.7490215188
 20
-361.0310716935
 10
649.5197606083
 20
-354.6593492363
 10
652.0793545234
 20
-348.2547793046
 10
654.421349528
 20
-341.833546985
 10
656.5398081849
 20
-335.4118739148
 10
658.4294094543
 20
-329.0059726635
 10
660.0853485956
 20
-322.632037598
 10
661.5034636074
 20
-316.3061627645
 10
662.6801720077
 20
-310.044325152
 10
663.6124813702
 20
-303.8623542753
 10
664.2980630815
 20
-297.7758500518
 10
664.7351680474
 20
-291.8002002838
 10
664.9226899131
 20
-285.9504989153
 10
664.8601650634
 20
-280.2415178945
 10
664.5477515488
 20
-274.6876778938
 10
663.9862396228
 20
-269.3030087675
 10
663.1770306681
 20
-264.101121792
 10
662.1221898803
 20
-259.095146553
 10
660.8243725108
 20
-254.2977297974
 10
659.2868554771
 20
-249.7209981741
 10
657.513526826
 20
-245.376505
 10
655.5088646602
 20
-241.2752256959
 10
653.2779318697
 20
-237.4275212832
 10
650.8263655957
 20
-233.8431140485
 10
648.1603561564
 20
-230.5310601648
 10
645.2866417793
 20
-227.4997162305
 10
642.2124769907
 20
-224.7567514342
 10
638.9456326158
 20
-222.3090867173
 10
635.4943589001
 20
-220.1629099801
 10
631.8673697047
 20
-218.323636536
 10
628.073831969
 20
-216.7959212781
 10
624.1233288327
 20
-215.5836191315
 10
620.0258385622
 20
-214.6897911351
 10
615.7917134773
 20
-214.1166922725
 10
611.4316430723
 20
-213.8657745097
 10
606.9566487481
 20
-213.9376715862
 10
602.3780311284
 20
-214.3322050929
 10
597.7073542549
 20
-215.0483692623
 10
592.9564218794
 20
-216.0843629047
 10
588.1372300484
 20
-217.4375681116
 10
583.2619578843
 20
-219.1045677452
 10
578.3429149009
 20
-221.0811393495
 10
573.3925317844
 20
-223.3623091428
 10
568.4233108375
 20
-225.9422954531
 10
563.4478058944
 20
-228.8145933182
 10
558.4785849475
 20
-231.9719473903
 10
553.528201831
 20
-235.4063682837
 10
548.6091588476
 20
-239.1092028184
 10
543.7338866835
 20
-243.0710726117
 10
538.9146948525
 20
-247.2819878571
 10
534.163762477
 20
-251.7313039775
 10
529.4930856035
 20
-256.4077885405
 10
524.9144679839
 20
-261.299614414
 10
520.4394736596
 20
-266.3944358076
 10
516.0794032546
 20
-271.6793837077
 10
511.8452781697
 20
-277.1410993363
 10
507.7477878992
 20
-282.7657888997
 10
503.7972847629
 20
-288.5392448805
 10
500.0037470272
 20
-294.4468855788
 10
496.3767578318
 20
-300.4737916117
 10
492.9254841161
 20
-306.604724163
 10
489.6586397412
 20
-312.8242071098
 10
486.5844749526
 20
-319.1165270209
 10
483.7107605755
 20
-325.4657909511
 10
481.0447511362
 20
-331.855953814
 10
478.5931848622
 20
-338.2708792194
 10
476.3622520717
 20
-344.694363805
 10
474.3575899059
 20
-351.1101767795
 10
472.5842612548
 20
-357.5021116331
 10
471.0467442211
 20
-363.8540226378
 10
469.7489268516
 20
-370.1498674332
 10
468.6940860638
 20
-376.3737359223
 10
467.8848771091
 20
-382.5099156699
 10
467.3233651831
 20
-388.5428926663
 10
467.0109516685
 20
-394.4574376331
 10
466.9484268188
 20
-400.2386083089
 10
467.1359486845
 20
-405.8718015397
 10
467.5730536504
 20
-411.3427806563
 10
468.2586353617
 20
-416.6377290847
 10
469.1909447242
 20
-421.7432784837
 10
470.3676531245
 20
-426.6465174958
 10
471.7857681363
 20
-431.335071588
 10
473.4417072776
 20
-435.7971000171
 10
475.331308547
 20
-440.0213140812
 10
477.4497672039
 20
-443.9970668491
 10
479.7917622085
 20
-447.7142892928
 10
482.3513561236
 20
-451.1636149943
 10
485.1220952131
 20
-454.336310192
 10
488.0969725633
 20
-457.2243802426
 10
491.2684807669
 20
-459.8205148724
 10
494.628601386
 20
-462.1181611806
 10
498.1688523672
 20
-464.1115145187
 10
501.880288042
 20
-465.7955367409
 10
505.7535307366
 20
-467.1659805426
 10
509.7787971137
 20
-468.2193803369
 10
513.9459245146
 20
-468.95307355
 10
518.2443762271
 20
-469.3652158313
 10
522.6633047061
 20
-469.4547506402
 10
527.1915410367
 20
-469.2214639993
 10
531.8176502521
 20
-468.665940392
 10
536.5299418701
 20
-467.7895749311
 10
541.3165146745
 20
-466.5946022609
 10
546.1652791051
 20
-465.084022794
 10
551.0639835999
 20
-463.2616605091
 10
556.0002554247
 20
-461.1321272132
 10
560.96162471
 20
-458.7007721629
 10
565.935558366
 20
-455.9737719927
  0
LWPOLYLINE
  5
C6
330
1F
100
AcDbEntity
  8
0
  6
Continuous
 62
     7
370
    25
100
AcDbPolyline
 90
       48
 70
   128
 43
0.0
 10
1053.8392356988
 20
-737.6345695983
 10
1058.8131693548
 20
-734.6187882079
 10
1063.77453864
 20
-731.3218682111
 10
1068.7108104649
 20
-727.7521033711
 10
1073.6095149597
 20
-723.918541836
 10
1078.4582793903
 20
-719.8308570537
 10
1083.2448521946
 20
-715.499370398
 10
1087.9571438127
 20
-710.9350397652
 10
1092.583253028
 20
-706.1493713629
 10
1097.1114893586
 20
-701.1544676217
 10
1101.5304178376
 20
-695.9629465897
 10
1105.8288695501
 20
-690.5879175993
 10
1109.995996951
 20
-685.0429614997
 10
1114.0212633282
 20
-679.3420880706
 10
1117.8945060228
 20
-673.4996934418
 10
1121.6059416976
 20
-667.530538801
 10
1125.1461926788
 20
-661.4496986847
 10
1128.5063132978
 20
-655.2725396874
 10
1131.6778215014
 20
-649.0146596283
 10
1134.6526988516
 20
-642.6918692991
 10
1137.4234379411
 20
-636.3201468419
 10
1139.9830318562
 20
-629.9155769102
 10
1142.3250268609
 20
-623.4943445906
 10
1144.4434855177
 20
-617.0726715204
 10
1146.3330867871
 20
-610.6667702691
 10
1147.9890259284
 20
-604.2928352036
 10
1149.4071409403
 20
-597.96696037
 10
1150.5838493406
 20
-591.7051227576
 10
1151.516158703
 20
-585.5231518809
 10
1152.2017404143
 20
-579.4366476574
 10
1152.6388453802
 20
-573.4609978894
 10
1152.826367246
 20
-567.6112965209
 10
1152.7638423962
 20
-561.9023155001
 10
1152.4514288816
 20
-556.3484754994
 10
1151.8899169556
 20
-550.9638063731
 10
1151.0807080009
 20
-545.7619193976
 10
1150.0258672131
 20
-540.7559441586
 10
1148.7280498436
 20
-535.958527403
 10
1147.19053281
 20
-531.3817957797
 10
1145.4172041589
 20
-527.0373026056
 10
1143.412541993
 20
-522.9360233015
 10
1141.1816092026
 20
-519.0883188888
 10
1138.7300429285
 20
-515.5039116541
 10
1136.0640334892
 20
-512.1918577704
 10
1133.1903191122
 20
-509.1605138361
 10
1130.1161543235
 20
-506.4175490398
 10
1126.8493099486
 20
-503.9698843229
 10
1123.833544887
 20
-502.07201525
  0
LWPOLYLINE
  5
C7
330
1F
100
AcDbEntity
  8
0
  6
Continuous
 62
     7
370
    25
100
AcDbPolyline
 90
       17
 70
   128
 43
0.0
 10
983.8449265106
 20
-744.5656956451
 10
986.0725297
 20
-745.7723121243
 10
989.7839653748
 20
-747.4563343465
 10
993.6572080694
 20
-748.8267781482
 10
997.6824744466
 20
-749.8801779425
 10
1001.8496018475
 20
-750.6138711556
 10
1006.14805356
 20
-751.0260134369
 10
1010.566982039
 20
-751.1155482458
 10
1015.0952183695
 20
-750.8822616049
 10
1019.7213275849
 20
-750.3267379976
 10
1024.4336192029
 20
-749.4503725367
 10
1029.2201920073
 20
-748.2553998665
 10
1034.0689564379
 20
-746.7448203996
 10
1038.9676609327
 20
-744.9224581147
 10
1043.9039327575
 20
-742.7929248188
 10
1048.8653020428
 20
-740.3615697685
 10
1053.8392356988
 20
-737.6345695983
  0
LWPOLYLINE
  5
C8
330
1F
100
AcDbEntity
  8
0
  6
Continuous
 62
     7
370
    25
100
AcDbPolyline
 90
      118
 70
   128
 43
0.0
 10
565.935558366
 20
-442.419196248
 10
570.6192187737
 20
-439.5701160674
 10
575.2893750677
 20
-436.438730262
 10
579.9325623178
 20
-433.0340652133
 10
584.5353919848
 20
-429.3659427545
 10
589.0845937384
 20
-425.4449316942
 10
593.5670506889
 20
-421.282345729
 10
597.9698395591
 20
-416.8901837507
 10
602.2802636108
 20
-412.2811047541
 10
606.4858974261
 20
-407.4684019856
 10
610.5746132496
 20
-402.4659512341
 10
614.5346257685
 20
-397.2881728119
 10
618.3545105529
 20
-391.9500026592
 10
622.0232620069
 20
-386.4668223866
 10
625.5302960031
 20
-380.8544516711
 10
628.8655025663
 20
-375.1290691723
 10
632.0192669467
 20
-369.307176033
 10
634.9824959617
 20
-363.4055624204
 10
637.7466443377
 20
-357.4412497341
 10
640.3037410521
 20
-351.4314267293
 10
642.6464156746
 20
-345.3934282266
 10
644.7679141729
 20
-339.3446560249
 10
646.6621147172
 20
-333.3025576105
 10
648.3235645589
 20
-327.2845470719
 10
649.7474642257
 20
-321.3079807637
 10
650.9297149366
 20
-315.3900903904
 10
651.8669080651
 20
-309.547932815
 10
652.5563356764
 20
-303.7983604014
 10
652.9960116
 20
-298.1579480124
 10
653.1846714307
 20
-292.6429560321
 10
653.1217672593
 20
-287.2692890151
 10
652.8074887466
 20
-282.0524350419
 10
652.2427315133
 20
-277.0074430916
 10
651.4291287496
 20
-272.1488545086
 10
650.3690248741
 20
-267.4906795209
 10
649.0654808016
 20
-263.0463451484
 10
647.5222476016
 20
-258.8286731474
 10
645.7437823033
 20
-254.8498161331
 10
643.7352057489
 20
-251.1212545339
 10
641.5023183984
 20
-247.6537266301
 10
639.0515476461
 20
-244.4572437583
 10
636.3899636259
 20
-241.5410142665
 10
633.525247601
 20
-238.9134465533
 10
630.4656445485
 20
-236.5821186445
 10
627.2199895017
 20
-234.553756903
 10
623.7976390608
 20
-232.834196478
 10
620.2084503201
 20
-231.4284056381
 10
616.4627808676
 20
-230.3404431851
 10
612.5714308332
 20
-229.5734310722
 10
608.545616547
 20
-229.1295878615
 10
604.3969441974
 20
-229.0101952618
 10
600.1373808552
 20
-229.2155905204
 10
595.77920179
 20
-229.7451907537
 10
591.3349772994
 20
-230.597464048
 10
586.8175200253
 20
-231.7699598732
 10
582.239853344
 20
-233.2592847449
 10
577.6151784385
 20
-235.0611516517
 10
572.9568282012
 20
-237.1703640808
 10
568.2782329885
 20
-239.5808479543
 10
563.5928837434
 20
-242.2856425003
 10
558.9142885307
 20
-245.276949679
 10
554.2559382934
 20
-248.5461539512
 10
549.6312633879
 20
-252.083823035
 10
545.0535967066
 20
-255.8797596135
 10
540.5361394325
 20
-259.9230089367
 10
536.0919149419
 20
-264.2019280188
 10
531.7337358767
 20
-268.7041742283
 10
527.4741725345
 20
-273.4167661224
 10
523.3255001849
 20
-278.3261138599
 10
519.2996858987
 20
-283.4180633077
 10
515.4083358643
 20
-288.6779325372
 10
511.6626664118
 20
-294.0905528871
 10
508.0734776711
 20
-299.6403328397
 10
504.6511272302
 20
-305.3112549766
 10
501.4054721834
 20
-311.0869702705
 10
498.3458691309
 20
-316.9508406714
 10
495.481153106
 20
-322.8859391042
 10
492.8195690858
 20
-328.8751680951
 10
490.3687983335
 20
-334.9012506478
 10
488.135910983
 20
-340.9468154115
 10
486.1273344286
 20
-346.9944301379
 10
484.3488691303
 20
-353.0266594783
 10
482.8056359303
 20
-359.0261106058
 10
481.5020918578
 20
-364.9754849288
 10
480.4419879823
 20
-370.8576297983
 10
479.6283852186
 20
-376.6555841372
 10
479.0636279853
 20
-382.3526309097
 10
478.7493494726
 20
-387.93234313
 10
478.6864453012
 20
-393.3786377573
 10
478.8751051319
 20
-398.6758077336
 10
479.3147810556
 20
-403.8085811066
 10
480.0042086668
 20
-408.7621573435
 10
480.9414017953
 20
-413.522254765
 10
482.1236525062
 20
-418.0751475223
 10
483.547552173
 20
-422.4077142687
 10
485.2090020147
 20
-426.5074556516
 10
487.103202559
 20
-430.3625566692
 10
489.2247010573
 20
-433.9618988423
 10
491.5673756798
 20
-437.295102799
 10
494.1244723942
 20
-440.3525647801
 10
496.8886207702
 20
-443.1254596827
 10
499.8518497852
 20
-445.6058018984
 10
503.0056141656
 20
-447.7864361906
 10
506.3408207288
 20
-449.6610711569
 10
509.847854725
 20
-451.2243066087
 10
513.516606179
 20
-452.4716366151
 10
517.3364909634
 20
-453.3994616726
 10
521.2965034823
 20
-454.0051069609
 10
525.3852193058
 20
-454.2868269063
 10
529.5908531211
 20
-454.2438082285
 10
533.9012771728
 20
-453.8761775473
 10
538.304066043
 20
-453.1849876983
 10
542.7865229935
 20
-452.1722390284
 10
547.3357247471
 20
-450.8408535445
 10
551.9385544141
 20
-449.1946619882
 10
556.5817416642
 20
-447.2384171481
 10
561.2518979582
 20
-444.9777552693
 10
565.935558366
 20
-442.419196248
  0
LWPOLYLINE
  5
C9
330
1F
100
AcDbEntity
  8
0
  6
Continuous
 62
     7
370
    25
100
AcDbPolyline
 90
       74
 70
   128
 43
0.0
 10
844.1113650564
 20
-739.0423614769
 10
846.9267307437
 20
-737.2708113852
 10
849.4678705953
 20
-735.366103071
 10
851.7159696655
 20
-733.3423372169
 10
853.6543822538
 20
-731.2144972593
 10
855.2687646025
 20
-728.9983393295
 10
856.547154909
 20
-726.7102669875
 10
857.48009384
 20
-724.3672251551
 10
858.0606758979
 20
-721.9865579323
 10
858.2845968357
 20
-719.585889984
 10
858.1502010725
 20
-717.1829988036
 10
857.6584843276
 20
-714.7956702481
 10
856.8130896693
 20
-712.4415822064
 10
855.6202745874
 20
-710.1381608948
 10
854.0888662126
 20
-707.9024637655
 10
852.2302046812
 20
-705.7510403637
 10
850.0580562078
 20
-703.6998182771
 10
847.5884961928
 20
-701.7639869942
 10
844.8398076431
 20
-699.9578784356
 10
841.8323464984
 20
-698.2948618374
 10
838.5883758438
 20
-696.7872510847
 10
835.1319137852
 20
-695.4462077684
 10
831.4885479049
 20
-694.2816614447
 10
827.6852577836
 20
-693.3022315099
 10
823.7501948819
 20
-692.5151731218
 10
819.7125017698
 20
-691.9263093388
 10
815.6020631973
 20
-691.540002988
 10
811.4493144572
 20
-691.359112945
 10
807.2850029926
 20
-691.3849781675
 10
803.1399605403
 20
-691.6174078102
 10
799.0448713231
 20
-692.0546797047
 10
795.0300573644
 20
-692.6935593674
 10
791.125242729
 20
-693.5293144467
 10
787.3593342281
 20
-694.5557561606
 10
783.7602172704
 20
-695.765287199
 10
780.3545362374
 20
-697.1489524755
 10
777.1675071276
 20
-698.6965077486
 10
774.2227239443
 20
-700.3964948951
 10
771.5419891205
 20
-702.2363276382
 10
769.1451508586
 20
-704.2023854499
 10
767.0499546279
 20
-706.2801114439
 10
765.2719127738
 20
-708.4541241463
 10
763.8241856496
 20
-710.7083256533
 10
762.7174937014
 20
-713.026028418
 10
761.9600344912
 20
-715.3900731029
 10
761.5574109158
 20
-717.7829551767
 10
761.5126061816
 20
-720.1869610145
 10
761.8259508781
 20
-722.5842918336
 10
762.4951256116
 20
-724.9571975128
 10
763.5151781272
 20
-727.2881081315
 10
764.8785509683
 20
-729.559771591
 10
766.5751572086
 20
-731.7553642435
 10
768.5924291847
 20
-733.8586345968
 10
770.9154360462
 20
-735.8540076705
 10
773.5269774339
 20
-737.7267120678
 10
776.4077188101
 20
-739.4628824312
 10
779.5363295891
 20
-741.0496665553
 10
782.8896510654
 20
-742.4753132062
 10
786.4428569342
 20
-743.7292678288
 10
790.1696353789
 20
-744.8022502918
 10
794.0423960189
 20
-745.6863135287
 10
798.0324710947
 20
-746.3749110183
 10
802.1103130312
 20
-746.8629469664
 10
806.2457354653
 20
-747.146809001
 10
810.4081160774
 20
-747.2243940237
 10
814.5666455212
 20
-747.0951272178
 10
818.6905289384
 20
-746.75996433
 10
822.7492362057
 20
-746.2213901489
 10
826.7127232055
 20
-745.4833911337
 10
830.551637292
 20
-744.5514280413
 10
834.2375635867
 20
-743.4324062731
 10
837.7432087126
 20
-742.1346063043
 10
841.0426177841
 20
-740.6676374933
 10
844.1113650564
 20
-739.0423614769
  0
LWPOLYLINE
  5
CA
330
1F
100
AcDbEntity
  8
0
  6
Continuous
 62
     7
370
    25
100
AcDbPolyline
 90
       79
 70
   128
 43
0.0
 10
848.7782697869
 20
-741.7365082314
 10
851.7815735401
 20
-739.8571329021
 10
854.5131789514
 20
-737.8443415955
 10
856.9553682102
 20
-735.7111880067
 10
859.0923029918
 20
-733.4715051787
 10
860.910125544
 20
-731.1398197742
 10
862.3970452861
 20
-728.7312534212
 10
863.5434198092
 20
-726.2614242495
 10
864.3418154631
 20
-723.7463541288
 10
864.7870521366
 20
-721.2023515769
 10
864.8762454047
 20
-718.6459174773
 10
864.6088131142
 20
-716.0936287476
 10
863.9864925055
 20
-713.5620387348
 10
863.0133178221
 20
-711.0675669662
 10
861.6956005546
 20
-708.6263904209
 10
860.0418886109
 20
-706.2543408837
 10
858.0629037539
 20
-703.9668019197
 10
855.7714836504
 20
-701.7786085091
 10
853.1824876987
 20
-699.7039531454
 10
850.3127056555
 20
-697.7562905077
 10
847.1807506228
 20
-695.9482513525
 10
843.8069344183
 20
-694.2915614426
 10
840.2131365246
 20
-692.796965893
 10
836.422663655
 20
-691.474157224
 10
832.4601005932
 20
-690.3317135837
 10
828.3511450629
 20
-689.3770459993
 10
824.1224450675
 20
-688.6163440128
 10
819.8014250348
 20
-688.0545422263
 10
815.4161073504
 20
-687.6952841859
 10
810.9949345517
 20
-687.5408988108
 10
806.5665809837
 20
-687.5923889885
 10
802.1597618212
 20
-687.8494186491
 10
797.8030605299
 20
-688.3103226494
 10
793.5247273521
 20
-688.9721105751
 10
789.3525159876
 20
-689.830491071
 10
785.3134807618
 20
-690.8798976932
 10
781.4338159412
 20
-692.1135238841
 10
777.7386851699
 20
-693.5233697338
 10
774.2520505776
 20
-695.100291972
 10
770.9965242778
 20
-696.8340623244
 10
767.9932205247
 20
-698.7134376536
 10
765.2616151133
 20
-700.7262289603
 10
762.8194258545
 20
-702.8593825491
 10
760.682491073
 20
-705.0990653771
 10
758.8646685207
 20
-707.4307507816
 10
757.3777487787
 20
-709.8393171345
 10
756.2313742555
 20
-712.3091463063
 10
755.4329786017
 20
-714.824216427
 10
754.9877419282
 20
-717.3682189789
 10
754.89854866
 20
-719.9246530785
 10
755.1659809505
 20
-722.4769418082
 10
755.7883015593
 20
-725.0085318209
 10
756.7614762427
 20
-727.5030035895
 10
758.0791935101
 20
-729.9441801349
 10
759.7329054539
 20
-732.3162296721
 10
761.7118903108
 20
-734.6037686361
 10
764.0033104143
 20
-736.7919620467
 10
766.5923063661
 20
-738.8666174104
 10
769.4620884093
 20
-740.8142800481
 10
772.5940434419
 20
-742.6223192033
 10
775.9678596465
 20
-744.2790091132
 10
779.5616575402
 20
-745.7736046628
 10
783.3521304097
 20
-747.0964133317
 10
787.3146934716
 20
-748.2388569721
 10
791.4236490019
 20
-749.1935245565
 10
795.6523489972
 20
-749.954226543
 10
799.97336903
 20
-750.5160283294
 10
804.3586867144
 20
-750.8752863699
 10
808.779859513
 20
-751.029671745
 10
813.208213081
 20
-750.9781815673
 10
817.6150322436
 20
-750.7211519067
 10
821.9717335349
 20
-750.2602479063
 10
826.2500667127
 20
-749.5984599807
 10
830.4222780772
 20
-748.7400794847
 10
834.4613133029
 20
-747.6906728626
 10
838.3409781235
 20
-746.4570466717
 10
842.0361088949
 20
-745.047200822
 10
845.5227434872
 20
-743.4702785837
 10
848.7782697869
 20
-741.7365082314
  0
ENDSEC
  0
SECTION
  2
OBJECTS
  0
DICTIONARY
  5
C
330
0
100
AcDbDictionary
281
     1
  3
ACAD_GROUP
350
D
  3
ACAD_LAYOUT
350
1A
  3
ACAD_MLINESTYLE
350
17
  3
ACAD_PLOTSETTINGS
350
19
  3
ACAD_PLOTSTYLENAME
350
E
  3
ACAD_SCALELIST
350
47
  0
DICTIONARY
  5
D
102
{ACAD_REACTORS
330
C
102
}
330
C
100
AcDbDictionary
281
     1
  0
DICTIONARY
  5
1A
102
{ACAD_REACTORS
330
C
102
}
330
C
100
AcDbDictionary
281
     1
  3
Layout1
350
1E
  3
Layout2
350
26
  3
Model
350
22
  0
DICTIONARY
  5
17
102
{ACAD_REACTORS
330
C
102
}
330
C
100
AcDbDictionary
281
     1
  3
Standard
350
18
  0
DICTIONARY
  5
19
102
{ACAD_REACTORS
330
C
102
}
330
C
100
AcDbDictionary
281
     1
  0
ACDBDICTIONARYWDFLT
  5
E
102
{ACAD_REACTORS
330
C
102
}
330
C
100
AcDbDictionary
281
     1
  3
Normal
350
F
100
AcDbDictionaryWithDefault
340
F
  0
DICTIONARY
  5
47
102
{ACAD_REACTORS
330
C
102
}
330
C
100
AcDbDictionary
281
     1
  3
A0
350
48
  3
A1
350
49
  3
A2
350
4A
  3
A3
350
4B
  3
A4
350
4C
  3
A5
350
4D
  3
A6
350
4E
  3
A7
350
4F
  3
A8
350
50
  3
A9
350
51
  3
B0
350
52
  3
B1
350
53
  3
B2
350
54
  3
B3
350
55
  3
B4
350
56
  3
B5
350
57
  3
B6
350
58
  3
B7
350
59
  3
B8
350
5A
  3
B9
350
5B
  3
C0
350
5C
  3
C1
350
5D
  3
C2
350
5E
  3
C3
350
5F
  3
C4
350
60
  3
C5
350
61
  3
C6
350
62
  3
C7
350
63
  3
C8
350
64
  3
C9
350
65
  3
D0
350
66
  3
D1
350
67
  3
D2
350
68
  0
LAYOUT
  5
1E
102
{ACAD_REACTORS
330
1A
102
}
330
1A
100
AcDbPlotSettings
  1

  2
none_device
  4

  6

 40
0.0
 41
0.0
 42
0.0
 43
0.0
 44
0.0
 45
0.0
 46
0.0
 47
0.0
 48
0.0
 49
0.0
140
0.0
141
0.0
142
1.0
143
1.0
 70
   688
 72
     1
 73
     0
 74
     5
  7

 75
    16
147
1.0
148
0.0
149
0.0
100
AcDbLayout
  1
Layout1
 70
     1
 71
     1
 10
0.0
 20
0.0
 11
420.0
 21
297.0
 12
0.0
 22
0.0
 32
0.0
 14
1.0000000000E+20
 24
1.0000000000E+20
 34
1.0000000000E+20
 15
-1.0000000000E+20
 25
-1.0000000000E+20
 35
-1.0000000000E+20
146
0.0
 13
0.0
 23
0.0
 33
0.0
 16
1.0
 26
0.0
 36
0.0
 17
0.0
 27
1.0
 37
0.0
 76
     0
330
1B
  0
LAYOUT
  5
26
102
{ACAD_REACTORS
330
1A
102
}
330
1A
100
AcDbPlotSettings
  1

  2
none_device
  4

  6

 40
0.0
 41
0.0
 42
0.0
 43
0.0
 44
0.0
 45
0.0
 46
0.0
 47
0.0
 48
0.0
 49
0.0
140
0.0
141
0.0
142
1.0
143
1.0
 70
   688
 72
     1
 73
     0
 74
     5
  7

 75
    16
147
1.0
148
0.0
149
0.0
100
AcDbLayout
  1
Layout2
 70
     1
 71
     2
 10
0.0
 20
0.0
 11
0.0
 21
0.0
 12
0.0
 22
0.0
 32
0.0
 14
0.0
 24
0.0
 34
0.0
 15
0.0
 25
0.0
 35
0.0
146
0.0
 13
0.0
 23
0.0
 33
0.0
 16
1.0
 26
0.0
 36
0.0
 17
0.0
 27
1.0
 37
0.0
 76
     0
330
23
  0
LAYOUT
  5
22
102
{ACAD_REACTORS
330
1A
102
}
330
1A
100
AcDbPlotSettings
  1

  2
none_device
  4
Letter_(8.50_x_11.00_Inches)
  6

 40
6.35
 41
6.35
 42
6.35000508
 43
6.35000508
 44
215.9
 45
279.4
 46
0.0
 47
0.0
 48
0.0
 49
0.0
140
0.0
141
0.0
142
1.0
143
1.0
 70
  1712
 72
     1
 73
     0
 74
     0
  7

 75
     0
147
1.0
148
0.0
149
0.0
100
AcDbLayout
  1
Model
 70
     1
 71
     0
 10
0.0
 20
0.0
 11
279.4
 21
215.9
 12
0.0
 22
0.0
 32
0.0
 14
0.0
 24
0.0
 34
0.0
 15
279.4
 25
215.9
 35
0.0
146
0.0
 13
0.0
 23
0.0
 33
0.0
 16
1.0
 26
0.0
 36
0.0
 17
0.0
 27
1.0
 37
0.0
 76
     0
330
1F
331
29
  0
MLINESTYLE
  5
18
102
{ACAD_REACTORS
330
17
102
}
330
17
100
AcDbMlineStyle
  2
Standard
 70
     0
  3

 62
   256
 51
90.0
 52
90.0
 71
     2
 49
0.5
 62
   256
  6
BYLAYER
 49
-0.5
 62
   256
  6
BYLAYER
  0
ACDBPLACEHOLDER
  5
F
102
{ACAD_REACTORS
330
E
102
}
330
E
  0
SCALE
  5
48
102
{ACAD_REACTORS
330
47
102
}
330
47
100
AcDbScale
 70
     0
300
1:1
140
1.0
141
1.0
290
     1
  0
SCALE
  5
49
102
{ACAD_REACTORS
330
47
102
}
330
47
100
AcDbScale
 70
     0
300
1:2
140
1.0
141
2.0
290
     0
  0
SCALE
  5
4A
102
{ACAD_REACTORS
330
47
102
}
330
47
100
AcDbScale
 70
     0
300
1:4
140
1.0
141
4.0
290
     0
  0
SCALE
  5
4B
102
{ACAD_REACTORS
330
47
102
}
330
47
100
AcDbScale
 70
     0
300
1:5
140
1.0
141
5.0
290
     0
  0
SCALE
  5
4C
102
{ACAD_REACTORS
330
47
102
}
330
47
100
AcDbScale
 70
     0
300
1:8
140
1.0
141
8.0
290
     0
  0
SCALE
  5
4D
102
{ACAD_REACTORS
330
47
102
}
330
47
100
AcDbScale
 70
     0
300
1:10
140
1.0
141
10.0
290
     0
  0
SCALE
  5
4E
102
{ACAD_REACTORS
330
47
102
}
330
47
100
AcDbScale
 70
     0
300
1:16
140
1.0
141
16.0
290
     0
  0
SCALE
  5
4F
102
{ACAD_REACTORS
330
47
102
}
330
47
100
AcDbScale
 70
     0
300
1:20
140
1.0
141
20.0
290
     0
  0
SCALE
  5
50
102
{ACAD_REACTORS
330
47
102
}
330
47
100
AcDbScale
 70
     0
300
1:30
140
1.0
141
30.0
290
     0
  0
SCALE
  5
51
102
{ACAD_REACTORS
330
47
102
}
330
47
100
AcDbScale
 70
     0
300
1:40
140
1.0
141
40.0
290
     0
  0
SCALE
  5
52
102
{ACAD_REACTORS
330
47
102
}
330
47
100
AcDbScale
 70
     0
300
1:50
140
1.0
141
50.0
290
     0
  0
SCALE
  5
53
102
{ACAD_REACTORS
330
47
102
}
330
47
100
AcDbScale
 70
     0
300
1:100
140
1.0
141
100.0
290
     0
  0
SCALE
  5
54
102
{ACAD_REACTORS
330
47
102
}
330
47
100
AcDbScale
 70
     0
300
2:1
140
2.0
141
1.0
290
     0
  0
SCALE
  5
55
102
{ACAD_REACTORS
330
47
102
}
330
47
100
AcDbScale
 70
     0
300
4:1
140
4.0
141
1.0
290
     0
  0
SCALE
  5
56
102
{ACAD_REACTORS
330
47
102
}
330
47
100
AcDbScale
 70
     0
300
8:1
140
8.0
141
1.0
290
     0
  0
SCALE
  5
57
102
{ACAD_REACTORS
330
47
102
}
330
47
100
AcDbScale
 70
     0
300
10:1
140
10.0
141
1.0
290
     0
  0
SCALE
  5
58
102
{ACAD_REACTORS
330
47
102
}
330
47
100
AcDbScale
 70
     0
300
100:1
140
100.0
141
1.0
290
     0
  0
SCALE
  5
59
102
{ACAD_REACTORS
330
47
102
}
330
47
100
AcDbScale
 70
     0
300
1/128" = 1'-0"
140
0.0078125
141
12.0
290
     0
  0
SCALE
  5
5A
102
{ACAD_REACTORS
330
47
102
}
330
47
100
AcDbScale
 70
     0
300
1/64" = 1'-0"
140
0.015625
141
12.0
290
     0
  0
SCALE
  5
5B
102
{ACAD_REACTORS
330
47
102
}
330
47
100
AcDbScale
 70
     0
300
1/32" = 1'-0"
140
0.03125
141
12.0
290
     0
  0
SCALE
  5
5C
102
{ACAD_REACTORS
330
47
102
}
330
47
100
AcDbScale
 70
     0
300
1/16" = 1'-0"
140
0.0625
141
12.0
290
     0
  0
SCALE
  5
5D
102
{ACAD_REACTORS
330
47
102
}
330
47
100
AcDbScale
 70
     0
300
3/32" = 1'-0"
140
0.09375
141
12.0
290
     0
  0
SCALE
  5
5E
102
{ACAD_REACTORS
330
47
102
}
330
47
100
AcDbScale
 70
     0
300
1/8" = 1'-0"
140
0.125
141
12.0
290
     0
  0
SCALE
  5
5F
102
{ACAD_REACTORS
330
47
102
}
330
47
100
AcDbScale
 70
     0
300
3/16" = 1'-0"
140
0.1875
141
12.0
290
     0
  0
SCALE
  5
60
102
{ACAD_REACTORS
330
47
102
}
330
47
100
AcDbScale
 70
     0
300
1/4" = 1'-0"
140
0.25
141
12.0
290
     0
  0
SCALE
  5
61
102
{ACAD_REACTORS
330
47
102
}
330
47
100
AcDbScale
 70
     0
300
3/8" = 1'-0"
140
0.375
141
12.0
290
     0
  0
SCALE
  5
62
102
{ACAD_REACTORS
330
47
102
}
330
47
100
AcDbScale
 70
     0
300
1/2" = 1'-0"
140
0.5
141
12.0
290
     0
  0
SCALE
  5
63
102
{ACAD_REACTORS
330
47
102
}
330
47
100
AcDbScale
 70
     0
300
3/4" = 1'-0"
140
0.75
141
12.0
290
     0
  0
SCALE
  5
64
102
{ACAD_REACTORS
330
47
102
}
330
47
100
AcDbScale
 70
     0
300
1" = 1'-0"
140
1.0
141
12.0
290
     0
  0
SCALE
  5
65
102
{ACAD_REACTORS
330
47
102
}
330
47
100
AcDbScale
 70
     0
300
1-1/2" = 1'-0"
140
1.5
141
12.0
290
     0
  0
SCALE
  5
66
102
{ACAD_REACTORS
330
47
102
}
330
47
100
AcDbScale
 70
     0
300
3" = 1'-0"
140
3.0
141
12.0
290
     0
  0
SCALE
  5
67
102
{ACAD_REACTORS
330
47
102
}
330
47
100
AcDbScale
 70
     0
300
6" = 1'-0"
140
6.0
141
12.0
290
     0
  0
SCALE
  5
68
102
{ACAD_REACTORS
330
47
102
}
330
47
100
AcDbScale
 70
     0
300
1'-0" = 1'-0"
140
12.0
141
12.0
290
     0
  0
ENDSEC
  0
EOF
